ISO-10303-21;
HEADER;
FILE_DESCRIPTION (( 'STEP AP203' ),
    '1' );
FILE_NAME ('BK7-LPDBSP-25.4-567.STEP',
    '2020-12-22T02:18:48',
    ( '' ),
    ( '' ),
    'SwSTEP 2.0',
    'SolidWorks 2020',
    '' );
FILE_SCHEMA (( 'CONFIG_CONTROL_DESIGN' ));
ENDSEC;

DATA;
#1 = CALENDAR_DATE ( 2020, 22, 12 ) ;
#2 = CARTESIAN_POINT ( 'NONE',  ( 3.499999999999998224, 0.000000000000000000, 12.69999999999999929 ) ) ;
#3 = PERSON ( 'UNSPECIFIED', 'UNSPECIFIED', 'UNSPECIFIED', ('UNSPECIFIED'), ('UNSPECIFIED'), ('UNSPECIFIED') ) ;
#4 = DIRECTION ( 'NONE',  ( 1.000000000000000000, 0.000000000000000000, 0.000000000000000000 ) ) ;
#5 = DATE_AND_TIME ( #1, #101 ) ;
#6 = CARTESIAN_POINT ( 'NONE',  ( -1.187907395172932594E-15, 1.555301434917138433E-15, -12.69999999999999929 ) ) ;
#7 = DIRECTION ( 'NONE',  ( -1.000000000000000000, -0.000000000000000000, -0.000000000000000000 ) ) ;
#8 = EDGE_CURVE ( 'NONE', #15, #129, #22, .T. ) ;
#9 = CALENDAR_DATE ( 2020, 22, 12 ) ;
#10 = EDGE_CURVE ( 'NONE', #18, #60, #33, .T. ) ;
#11 = MECHANICAL_CONTEXT ( 'NONE', #30, 'mechanical' ) ;
#12 =( NAMED_UNIT ( * ) PLANE_ANGLE_UNIT ( ) SI_UNIT ( $, .RADIAN. ) );
#13 = APPROVAL_STATUS ( 'not_yet_approved' ) ;
#14 = EDGE_LOOP ( 'NONE', ( #141, #140 ) ) ;
#15 = VERTEX_POINT ( 'NONE', #2 ) ;
#16 = EDGE_CURVE ( 'NONE', #18, #15, #93, .T. ) ;
#17 = AXIS2_PLACEMENT_3D ( 'NONE', #113, #164, #169 ) ;
#18 = VERTEX_POINT ( 'NONE', #103 ) ;
#19 = PLANE ( 'NONE',  #138 ) ;
#20 = APPROVAL_PERSON_ORGANIZATION ( #66, #47, #96 ) ;
#21 = DIRECTION ( 'NONE',  ( 0.000000000000000000, 0.000000000000000000, 1.000000000000000000 ) ) ;
#22 = LINE ( 'NONE', #75, #99 ) ;
#23 = ORIENTED_EDGE ( 'NONE', *, *, #10, .F. ) ;
#24 = AXIS2_PLACEMENT_3D ( 'NONE', #136, #108, #160 ) ;
#25 = ADVANCED_FACE ( 'NONE', ( #105 ), #77, .T. ) ;
#26 = APPLICATION_PROTOCOL_DEFINITION ( 'international standard', 'config_control_design', 1994, #30 ) ;
#27 = CALENDAR_DATE ( 2020, 22, 12 ) ;
#28 = CC_DESIGN_SECURITY_CLASSIFICATION ( #175, ( #78 ) ) ;
#29 = ORIENTED_EDGE ( 'NONE', *, *, #16, .F. ) ;
#30 = APPLICATION_CONTEXT ( 'configuration controlled 3d designs of mechanical parts and assemblies' ) ;
#31 = CYLINDRICAL_SURFACE ( 'NONE', #112, 12.69999999999999929 ) ;
#32 = APPROVAL_ROLE ( '' ) ;
#33 = LINE ( 'NONE', #48, #42 ) ;
#34 = PERSON_AND_ORGANIZATION_ROLE ( 'creator' ) ;
#35 = EDGE_LOOP ( 'NONE', ( #23, #151, #44, #116 ) ) ;
#36 = CARTESIAN_POINT ( 'NONE',  ( -5.939536975864662969E-16, 12.69999999999999929, 0.000000000000000000 ) ) ;
#37 = LOCAL_TIME ( 10, 18, 48.00000000000000000, #134 ) ;
#38 =( NAMED_UNIT ( * ) SI_UNIT ( $, .STERADIAN. ) SOLID_ANGLE_UNIT ( ) );
#39 = DATE_AND_TIME ( #51, #148 ) ;
#40 = DATE_AND_TIME ( #27, #57 ) ;
#41 = UNCERTAINTY_MEASURE_WITH_UNIT (LENGTH_MEASURE( 1.000000000000000082E-05 ), #50, 'distance_accuracy_value', 'NONE');
#42 = VECTOR ( 'NONE', #46, 1000.000000000000000 ) ;
#43 = CC_DESIGN_DATE_AND_TIME_ASSIGNMENT ( #39, #82, ( #106 ) ) ;
#44 = ORIENTED_EDGE ( 'NONE', *, *, #8, .T. ) ;
#45 = DATE_TIME_ROLE ( 'classification_date' ) ;
#46 = DIRECTION ( 'NONE',  ( -1.000000000000000000, -0.000000000000000000, -0.000000000000000000 ) ) ;
#47 = APPROVAL ( #159, 'UNSPECIFIED' ) ;
#48 = CARTESIAN_POINT ( 'NONE',  ( 0.000000000000000000, 1.555301434917138433E-15, -12.69999999999999929 ) ) ;
#49 = EDGE_LOOP ( 'NONE', ( #86, #29 ) ) ;
#50 =( LENGTH_UNIT ( ) NAMED_UNIT ( * ) SI_UNIT ( .MILLI., .METRE. ) );
#51 = CALENDAR_DATE ( 2020, 22, 12 ) ;
#52 = CARTESIAN_POINT ( 'NONE',  ( 3.499999999999998224, 0.000000000000000000, 0.000000000000000000 ) ) ;
#53 = DIRECTION ( 'NONE',  ( -1.000000000000000000, -0.000000000000000000, -0.000000000000000000 ) ) ;
#54 = APPLICATION_PROTOCOL_DEFINITION ( 'international standard', 'config_control_design', 1994, #165 ) ;
#55 = CLOSED_SHELL ( 'NONE', ( #80, #25, #153, #122 ) ) ;
#56 = CC_DESIGN_DATE_AND_TIME_ASSIGNMENT ( #40, #45, ( #175 ) ) ;
#57 = LOCAL_TIME ( 10, 18, 48.00000000000000000, #87 ) ;
#58 = PRODUCT ( 'BK7-LPDBSP-25.4-567', 'BK7-LPDBSP-25.4-567', '', ( #11 ) ) ;
#59 = EDGE_LOOP ( 'NONE', ( #102, #69, #163, #143 ) ) ;
#60 = VERTEX_POINT ( 'NONE', #6 ) ;
#61 = APPROVAL_DATE_TIME ( #5, #124 ) ;
#62 = CC_DESIGN_PERSON_AND_ORGANIZATION_ASSIGNMENT ( #130, #71, ( #175 ) ) ;
#63 = FACE_OUTER_BOUND ( 'NONE', #59, .T. ) ;
#64 = CALENDAR_DATE ( 2020, 22, 12 ) ;
#65 = LOCAL_TIME ( 10, 18, 48.00000000000000000, #158 ) ;
#66 = PERSON_AND_ORGANIZATION ( #3, #144 ) ;
#67 = AXIS2_PLACEMENT_3D ( 'NONE', #166, #171, #155 ) ;
#68 = CC_DESIGN_PERSON_AND_ORGANIZATION_ASSIGNMENT ( #157, #109, ( #58 ) ) ;
#69 = ORIENTED_EDGE ( 'NONE', *, *, #10, .T. ) ;
#70 = SECURITY_CLASSIFICATION_LEVEL ( 'unclassified' ) ;
#71 = PERSON_AND_ORGANIZATION_ROLE ( 'classification_officer' ) ;
#72 = APPROVAL_PERSON_ORGANIZATION ( #137, #156, #120 ) ;
#73 = ADVANCED_BREP_SHAPE_REPRESENTATION ( 'BK7-LPDBSP-25.4-567', ( #98, #24 ), #128 ) ;
#74 = DIRECTION ( 'NONE',  ( -1.000000000000000000, 0.000000000000000000, -0.000000000000000000 ) ) ;
#75 = CARTESIAN_POINT ( 'NONE',  ( 0.000000000000000000, 0.000000000000000000, 12.69999999999999929 ) ) ;
#76 = AXIS2_PLACEMENT_3D ( 'NONE', #95, #53, #174 ) ;
#77 = CYLINDRICAL_SURFACE ( 'NONE', #154, 12.69999999999999929 ) ;
#78 = PRODUCT_DEFINITION_FORMATION_WITH_SPECIFIED_SOURCE ( 'ANY', '', #58, .NOT_KNOWN. ) ;
#79 = CC_DESIGN_PERSON_AND_ORGANIZATION_ASSIGNMENT ( #147, #145, ( #106 ) ) ;
#80 = ADVANCED_FACE ( 'NONE', ( #63 ), #31, .T. ) ;
#81 = CC_DESIGN_APPROVAL ( #156, ( #78 ) ) ;
#82 = DATE_TIME_ROLE ( 'creation_date' ) ;
#83 = CIRCLE ( 'NONE', #67, 12.69999999999999929 ) ;
#84 = CC_DESIGN_APPROVAL ( #47, ( #106 ) ) ;
#85 = PERSON_AND_ORGANIZATION_ROLE ( 'design_supplier' ) ;
#86 = ORIENTED_EDGE ( 'NONE', *, *, #161, .F. ) ;
#87 = COORDINATED_UNIVERSAL_TIME_OFFSET ( 8, 0, .AHEAD. ) ;
#88 = CARTESIAN_POINT ( 'NONE',  ( 0.000000000000000000, 0.000000000000000000, 0.000000000000000000 ) ) ;
#89 = PRODUCT_DEFINITION_SHAPE ( 'NONE', 'NONE',  #106 ) ;
#90 = CARTESIAN_POINT ( 'NONE',  ( 3.499999999999999112, 12.69999999999999929, 0.000000000000000000 ) ) ;
#91 = COORDINATED_UNIVERSAL_TIME_OFFSET ( 8, 0, .AHEAD. ) ;
#92 = PLANE ( 'NONE',  #125 ) ;
#93 = CIRCLE ( 'NONE', #17, 12.69999999999999929 ) ;
#94 = DIRECTION ( 'NONE',  ( 0.000000000000000000, 0.000000000000000000, 1.000000000000000000 ) ) ;
#95 = CARTESIAN_POINT ( 'NONE',  ( -1.187907395172932594E-15, 0.000000000000000000, 0.000000000000000000 ) ) ;
#96 = APPROVAL_ROLE ( '' ) ;
#97 = CC_DESIGN_PERSON_AND_ORGANIZATION_ASSIGNMENT ( #162, #34, ( #78 ) ) ;
#98 = MANIFOLD_SOLID_BREP ( 'Ðý×', #55 ) ;
#99 = VECTOR ( 'NONE', #127, 1000.000000000000000 ) ;
#100 = CC_DESIGN_APPROVAL ( #124, ( #175 ) ) ;
#101 = LOCAL_TIME ( 10, 18, 48.00000000000000000, #91 ) ;
#102 = ORIENTED_EDGE ( 'NONE', *, *, #161, .T. ) ;
#103 = CARTESIAN_POINT ( 'NONE',  ( 3.499999999999998224, 1.555301434917138433E-15, -12.69999999999999929 ) ) ;
#104 = FACE_OUTER_BOUND ( 'NONE', #49, .T. ) ;
#105 = FACE_OUTER_BOUND ( 'NONE', #35, .T. ) ;
#106 = PRODUCT_DEFINITION ( 'UNKNOWN', '', #78, #150 ) ;
#107 = DIRECTION ( 'NONE',  ( -1.000000000000000000, -0.000000000000000000, -0.000000000000000000 ) ) ;
#108 = DIRECTION ( 'NONE',  ( 0.000000000000000000, 0.000000000000000000, 1.000000000000000000 ) ) ;
#109 = PERSON_AND_ORGANIZATION_ROLE ( 'design_owner' ) ;
#110 = APPROVAL_DATE_TIME ( #123, #47 ) ;
#111 = APPROVAL_DATE_TIME ( #121, #156 ) ;
#112 = AXIS2_PLACEMENT_3D ( 'NONE', #88, #107, #21 ) ;
#113 = CARTESIAN_POINT ( 'NONE',  ( 3.499999999999998224, 0.000000000000000000, 0.000000000000000000 ) ) ;
#114 = DIRECTION ( 'NONE',  ( 0.000000000000000000, 0.000000000000000000, -1.000000000000000000 ) ) ;
#115 = SHAPE_DEFINITION_REPRESENTATION ( #89, #73 ) ;
#116 = ORIENTED_EDGE ( 'NONE', *, *, #172, .F. ) ;
#117 = CARTESIAN_POINT ( 'NONE',  ( -1.187907395172932594E-15, 0.000000000000000000, 12.69999999999999929 ) ) ;
#118 = CC_DESIGN_PERSON_AND_ORGANIZATION_ASSIGNMENT ( #167, #85, ( #78 ) ) ;
#119 = APPROVAL_STATUS ( 'not_yet_approved' ) ;
#120 = APPROVAL_ROLE ( '' ) ;
#121 = DATE_AND_TIME ( #9, #65 ) ;
#122 = ADVANCED_FACE ( 'NONE', ( #142 ), #19, .F. ) ;
#123 = DATE_AND_TIME ( #64, #37 ) ;
#124 = APPROVAL ( #13, 'UNSPECIFIED' ) ;
#125 = AXIS2_PLACEMENT_3D ( 'NONE', #90, #74, #131 ) ;
#126 = PERSON_AND_ORGANIZATION ( #3, #144 ) ;
#127 = DIRECTION ( 'NONE',  ( -1.000000000000000000, -0.000000000000000000, -0.000000000000000000 ) ) ;
#128 =( GEOMETRIC_REPRESENTATION_CONTEXT ( 3 ) GLOBAL_UNCERTAINTY_ASSIGNED_CONTEXT ( ( #41 ) ) GLOBAL_UNIT_ASSIGNED_CONTEXT ( ( #50, #12, #38 ) ) REPRESENTATION_CONTEXT ( 'NONE', 'WORKASPACE' ) );
#129 = VERTEX_POINT ( 'NONE', #117 ) ;
#130 = PERSON_AND_ORGANIZATION ( #3, #144 ) ;
#131 = DIRECTION ( 'NONE',  ( -0.000000000000000000, 0.000000000000000000, 1.000000000000000000 ) ) ;
#132 = DIRECTION ( 'NONE',  ( -1.000000000000000000, -0.000000000000000000, -0.000000000000000000 ) ) ;
#133 = CARTESIAN_POINT ( 'NONE',  ( 0.000000000000000000, 0.000000000000000000, 0.000000000000000000 ) ) ;
#134 = COORDINATED_UNIVERSAL_TIME_OFFSET ( 8, 0, .AHEAD. ) ;
#135 = COORDINATED_UNIVERSAL_TIME_OFFSET ( 8, 0, .AHEAD. ) ;
#136 = CARTESIAN_POINT ( 'NONE',  ( 0.000000000000000000, 0.000000000000000000, 0.000000000000000000 ) ) ;
#137 = PERSON_AND_ORGANIZATION ( #3, #144 ) ;
#138 = AXIS2_PLACEMENT_3D ( 'NONE', #36, #4, #114 ) ;
#139 = CIRCLE ( 'NONE', #76, 12.69999999999999929 ) ;
#140 = ORIENTED_EDGE ( 'NONE', *, *, #172, .T. ) ;
#141 = ORIENTED_EDGE ( 'NONE', *, *, #149, .T. ) ;
#142 = FACE_OUTER_BOUND ( 'NONE', #14, .T. ) ;
#143 = ORIENTED_EDGE ( 'NONE', *, *, #8, .F. ) ;
#144 = ORGANIZATION ( 'UNSPECIFIED', 'UNSPECIFIED', '' ) ;
#145 = PERSON_AND_ORGANIZATION_ROLE ( 'creator' ) ;
#146 = CIRCLE ( 'NONE', #168, 12.69999999999999929 ) ;
#147 = PERSON_AND_ORGANIZATION ( #3, #144 ) ;
#148 = LOCAL_TIME ( 10, 18, 48.00000000000000000, #135 ) ;
#149 = EDGE_CURVE ( 'NONE', #129, #60, #83, .T. ) ;
#150 = DESIGN_CONTEXT ( 'detailed design', #165, 'design' ) ;
#151 = ORIENTED_EDGE ( 'NONE', *, *, #16, .T. ) ;
#152 = DIRECTION ( 'NONE',  ( 0.000000000000000000, 0.000000000000000000, 1.000000000000000000 ) ) ;
#153 = ADVANCED_FACE ( 'NONE', ( #104 ), #92, .F. ) ;
#154 = AXIS2_PLACEMENT_3D ( 'NONE', #133, #132, #152 ) ;
#155 = DIRECTION ( 'NONE',  ( 0.000000000000000000, 0.000000000000000000, 1.000000000000000000 ) ) ;
#156 = APPROVAL ( #119, 'UNSPECIFIED' ) ;
#157 = PERSON_AND_ORGANIZATION ( #3, #144 ) ;
#158 = COORDINATED_UNIVERSAL_TIME_OFFSET ( 8, 0, .AHEAD. ) ;
#159 = APPROVAL_STATUS ( 'not_yet_approved' ) ;
#160 = DIRECTION ( 'NONE',  ( 1.000000000000000000, 0.000000000000000000, 0.000000000000000000 ) ) ;
#161 = EDGE_CURVE ( 'NONE', #15, #18, #146, .T. ) ;
#162 = PERSON_AND_ORGANIZATION ( #3, #144 ) ;
#163 = ORIENTED_EDGE ( 'NONE', *, *, #149, .F. ) ;
#164 = DIRECTION ( 'NONE',  ( -1.000000000000000000, -0.000000000000000000, -0.000000000000000000 ) ) ;
#165 = APPLICATION_CONTEXT ( 'configuration controlled 3d designs of mechanical parts and assemblies' ) ;
#166 = CARTESIAN_POINT ( 'NONE',  ( -1.187907395172932594E-15, 0.000000000000000000, 0.000000000000000000 ) ) ;
#167 = PERSON_AND_ORGANIZATION ( #3, #144 ) ;
#168 = AXIS2_PLACEMENT_3D ( 'NONE', #52, #7, #94 ) ;
#169 = DIRECTION ( 'NONE',  ( 0.000000000000000000, 0.000000000000000000, 1.000000000000000000 ) ) ;
#170 = APPROVAL_PERSON_ORGANIZATION ( #126, #124, #32 ) ;
#171 = DIRECTION ( 'NONE',  ( -1.000000000000000000, -0.000000000000000000, -0.000000000000000000 ) ) ;
#172 = EDGE_CURVE ( 'NONE', #60, #129, #139, .T. ) ;
#173 = PRODUCT_RELATED_PRODUCT_CATEGORY ( 'detail', '', ( #58 ) ) ;
#174 = DIRECTION ( 'NONE',  ( 0.000000000000000000, 0.000000000000000000, 1.000000000000000000 ) ) ;
#175 = SECURITY_CLASSIFICATION ( '', '', #70 ) ;
ENDSEC;
END-ISO-10303-21;
